  0
SECTION
  2
HEADER
  9
$ACADVER
  1
AC1009
  9
$INSBASE
 10
168.3379502984876
 20
117.9732260972601
 30
0.0
  9
$EXTMIN
 10
168.3379502984876
 20
117.9732260972601
 30
0.0
  9
$EXTMAX
 10
284.5184776282624
 20
220.544590952739
 30
0.0
  9
$LIMMIN
 10
0.0
 20
0.0000000000000001
  9
$LIMMAX
 10
420.0
 20
297.0
  9
$ORTHOMODE
 70
     1
  9
$REGENMODE
 70
     0
  9
$FILLMODE
 70
     1
  9
$QTEXTMODE
 70
     0
  9
$MIRRTEXT
 70
     0
  9
$DRAGMODE
 70
     2
  9
$LTSCALE
 40
1.0
  9
$OSMODE
 70
     0
  9
$ATTMODE
 70
     1
  9
$TEXTSIZE
 40
3.5
  9
$TRACEWID
 40
0.1
  9
$TEXTSTYLE
  7
STANDARD
  9
$CLAYER
  8
4AN
  9
$CELTYPE
  6
BYLAYER
  9
$CECOLOR
 62
   256
  9
$DIMSCALE
 40
1.0
  9
$DIMASZ
 40
2.0
  9
$DIMEXO
 40
1.0
  9
$DIMDLI
 40
8.0
  9
$DIMRND
 40
0.0
  9
$DIMDLE
 40
0.0
  9
$DIMEXE
 40
2.0
  9
$DIMTP
 40
0.1
  9
$DIMTM
 40
0.1
  9
$DIMTXT
 40
3.5
  9
$DIMCEN
 40
2.0
  9
$DIMTSZ
 40
0.0
  9
$DIMTOL
 70
     0
  9
$DIMLIM
 70
     0
  9
$DIMTIH
 70
     0
  9
$DIMTOH
 70
     0
  9
$DIMSE1
 70
     0
  9
$DIMSE2
 70
     0
  9
$DIMTAD
 70
     1
  9
$DIMZIN
 70
     8
  9
$DIMBLK
  1

  9
$DIMASO
 70
     1
  9
$DIMSHO
 70
     1
  9
$DIMPOST
  1

  9
$DIMAPOST
  1

  9
$DIMALT
 70
     0
  9
$DIMALTD
 70
     2
  9
$DIMALTF
 40
25.39999999999999
  9
$DIMLFAC
 40
1.0
  9
$DIMTOFL
 70
     1
  9
$DIMTVP
 40
0.0
  9
$DIMTIX
 70
     0
  9
$DIMSOXD
 70
     0
  9
$DIMSAH
 70
     0
  9
$DIMBLK1
  1

  9
$DIMBLK2
  1

  9
$DIMSTYLE
  2
*UNNAMED
  9
$DIMCLRD
 70
   256
  9
$DIMCLRE
 70
   256
  9
$DIMCLRT
 70
     2
  9
$DIMTFAC
 40
0.8
  9
$DIMGAP
 40
2.0
  9
$LUNITS
 70
     2
  9
$LUPREC
 70
     3
  9
$SKETCHINC
 40
0.1
  9
$FILLETRAD
 40
1.5
  9
$AUNITS
 70
     0
  9
$AUPREC
 70
     1
  9
$MENU
  1

  9
$ELEVATION
 40
0.0
  9
$PELEVATION
 40
0.0
  9
$THICKNESS
 40
0.0
  9
$LIMCHECK
 70
     0
  9
$BLIPMODE
 70
     0
  9
$CHAMFERA
 40
5.0
  9
$CHAMFERB
 40
5.0
  9
$SKPOLY
 70
     1
  9
$TDCREATE
 40
2449335.395503588
  9
$TDUPDATE
 40
2449394.635285764
  9
$TDINDWG
 40
0.0004457176
  9
$TDUSRTIMER
 40
0.0004457176
  9
$USRTIMER
 70
     1
  9
$ANGBASE
 50
0.0
  9
$ANGDIR
 70
     0
  9
$PDMODE
 70
     3
  9
$PDSIZE
 40
0.0
  9
$PLINEWID
 40
0.0
  9
$COORDS
 70
     2
  9
$SPLFRAME
 70
     0
  9
$SPLINETYPE
 70
     6
  9
$SPLINESEGS
 70
     8
  9
$ATTDIA
 70
     1
  9
$ATTREQ
 70
     1
  9
$HANDLING
 70
     0
  9
$HANDSEED
  5
F10B1
  9
$SURFTAB1
 70
     6
  9
$SURFTAB2
 70
     6
  9
$SURFTYPE
 70
     6
  9
$SURFU
 70
     6
  9
$SURFV
 70
     6
  9
$UCSNAME
  2

  9
$UCSORG
 10
0.0
 20
0.0
 30
0.0
  9
$UCSXDIR
 10
1.0
 20
0.0
 30
0.0
  9
$UCSYDIR
 10
0.0
 20
1.0
 30
0.0
  9
$PUCSNAME
  2

  9
$PUCSORG
 10
0.0
 20
0.0
 30
0.0
  9
$PUCSXDIR
 10
1.0
 20
0.0
 30
0.0
  9
$PUCSYDIR
 10
0.0
 20
1.0
 30
0.0
  9
$USERI1
 70
     0
  9
$USERI2
 70
     3
  9
$USERI3
 70
    15
  9
$USERI4
 70
     0
  9
$USERI5
 70
     0
  9
$USERR1
 40
1.0
  9
$USERR2
 40
1.0
  9
$USERR3
 40
0.0
  9
$USERR4
 40
1.0
  9
$USERR5
 40
0.0
  9
$WORLDVIEW
 70
     5
  9
$SHADEDGE
 70
     3
  9
$SHADEDIF
 70
    70
  9
$TILEMODE
 70
     1
  9
$MAXACTVP
 70
     4
  9
$PINSBASE
 10
0.0
 20
0.0
 30
0.0
  9
$PLIMCHECK
 70
     0
  9
$PEXTMIN
 10
1.000000000000000E+20
 20
1.000000000000000E+20
 30
1.000000000000000E+20
  9
$PEXTMAX
 10
-1.000000000000000E+20
 20
-1.000000000000000E+20
 30
-1.000000000000000E+20
  9
$PLIMMIN
 10
0.0
 20
0.0
  9
$PLIMMAX
 10
12.0
 20
12.0
  9
$UNITMODE
 70
     0
  9
$VISRETAIN
 70
     0
  9
$PLINEGEN
 70
     0
  9
$PSLTSCALE
 70
     0
  9
$TREEDEPTH
 70
  3020
  9
$DWGCODEPAGE
  3
undefined
  0
ENDSEC
  0
SECTION
  2
TABLES
  0
TABLE
  2
VPORT
 70
     2
  0
VPORT
  2
*ACTIVE
 70
     0
 10
0.0
 20
0.0
 11
1.0
 21
1.0
 12
239.1492660360652
 22
173.482096484768
 13
0.0
 23
0.0
 14
7.0
 24
7.0
 15
10.0
 25
10.0
 16
0.0
 26
0.0
 36
1.0
 17
0.0
 27
0.0
 37
0.0
 40
111.0177407750156
 41
1.275675675675675
 42
50.0
 43
0.0
 44
0.0
 50
0.0
 51
0.0
 71
     0
 72
   100
 73
     1
 74
     0
 75
     0
 76
     0
 77
     0
 78
     0
  0
ENDTAB
  0
TABLE
  2
LTYPE
 70
     2
  0
LTYPE
  2
CONTINUOUS
 70
    64
  3
Solid line
 72
    65
 73
     0
 40
0.0
  0
LTYPE
  2
GEN
 70
    64
  3
----------------------
 72
    65
 73
     2
 40
10000000000.0
 49
0.0
 49
10000000000.0
  0
ENDTAB
  0
TABLE
  2
LAYER
 70
     4
  0
LAYER
  2
0
 70
     0
 62
     7
  6
GEN
  0
LAYER
  2
ITEM_50
 70
    64
 62
     7
  6
CONTINUOUS
  0
LAYER
  2
ITEM_HILFE
 70
    64
 62
     3
  6
CONTINUOUS
  0
LAYER
  2
4AN
 70
     0
 62
     3
  6
CONTINUOUS
  0
ENDTAB
  0
TABLE
  2
STYLE
 70
     1
  0
STYLE
  2
STANDARD
 70
     0
 40
0.0
 41
1.0
 50
0.0
 71
     0
 42
3.5
  3
GENISO
  4

  0
ENDTAB
  0
TABLE
  2
VIEW
 70
     0
  0
ENDTAB
  0
TABLE
  2
UCS
 70
     0
  0
ENDTAB
  0
TABLE
  2
APPID
 70
     1
  0
APPID
  2
ACAD
 70
    64
  0
ENDTAB
  0
TABLE
  2
DIMSTYLE
 70
     0
  0
ENDTAB
  0
ENDSEC
  0
SECTION
  2
BLOCKS
  0
ENDSEC
  0
SECTION
  2
ENTITIES
  0
POINT
  8
ITEM_HILFE
 10
259.6256853714477
 20
209.2564461964129
 30
0.0
  0
POINT
  8
ITEM_HILFE
 10
179.6257358243032
 20
209.2564461964129
 30
0.0
  0
POINT
  8
ITEM_HILFE
 10
259.6256853714477
 20
129.2613195802665
 30
0.0
  0
POINT
  8
ITEM_HILFE
 10
259.6256853714521
 20
149.2588828883402
 30
0.0
  0
POINT
  8
ITEM_HILFE
 10
255.1256853714533
 20
149.2588828883402
 30
0.0
  0
POINT
  8
ITEM_HILFE
 10
259.6256853714521
 20
189.2588828883391
 30
0.0
  0
POINT
  8
ITEM_HILFE
 10
255.1256853714533
 20
189.2588828883391
 30
0.0
  0
POINT
  8
ITEM_HILFE
 10
184.1257358242975
 20
149.2588828883402
 30
0.0
  0
POINT
  8
ITEM_HILFE
 10
179.6257358242988
 20
149.2588828883402
 30
0.0
  0
POINT
  8
ITEM_HILFE
 10
179.6257358242988
 20
189.2588828883391
 30
0.0
  0
POINT
  8
ITEM_HILFE
 10
184.1257358242975
 20
189.2588828883391
 30
0.0
  0
POINT
  8
ITEM_HILFE
 10
239.6256853714584
 20
133.7589341616581
 30
0.0
  0
POINT
  8
ITEM_HILFE
 10
239.6256853714584
 20
129.2610116230713
 30
0.0
  0
POINT
  8
ITEM_HILFE
 10
199.6257358242924
 20
129.2610116230713
 30
0.0
  0
POINT
  8
ITEM_HILFE
 10
199.6257358242924
 20
133.7589341616581
 30
0.0
  0
LINE
  8
ITEM_50
 10
243.6256853714585
 20
207.7566204334152
 30
0.0
 11
243.6256853714584
 21
205.7588828883411
 31
0.0
  0
POINT
  8
ITEM_HILFE
 10
239.6256853714584
 20
204.7588828883411
 30
0.0
  0
POINT
  8
ITEM_HILFE
 10
239.6256853714584
 20
209.2568054269279
 30
0.0
  0
POINT
  8
ITEM_HILFE
 10
199.6257358242924
 20
209.2568054269279
 30
0.0
  0
POINT
  8
ITEM_HILFE
 10
199.6257358242924
 20
204.7588828883411
 30
0.0
  0
POINT
  8
ITEM_HILFE
 10
219.624289132645
 20
169.2542014164652
 30
0.0
  0
POINT
  8
ITEM_HILFE
 10
179.6257358243032
 20
129.2613195802665
 30
0.0
  0
LINE
  8
ITEM_50
 10
283.5184776282623
 20
145.258882888337
 30
0.0
 11
284.5184776282624
 21
145.258882888337
 31
0.0
  0
LINE
  8
ITEM_50
 10
283.5184776282623
 20
153.2588828883369
 30
0.0
 11
284.5184776282624
 21
153.2588828883369
 31
0.0
  0
LINE
  8
ITEM_50
 10
283.5184776282623
 20
185.2588828883418
 30
0.0
 11
284.5184776282624
 21
185.2588828883418
 31
0.0
  0
LINE
  8
ITEM_50
 10
283.5184776282623
 20
193.2588828883411
 30
0.0
 11
284.5184776282624
 21
193.2588828883411
 31
0.0
  0
LINE
  8
ITEM_50
 10
283.5184776282624
 20
209.2576535322645
 30
0.0
 11
283.5184776282624
 21
129.2601122444146
 31
0.0
  0
LINE
  8
ITEM_50
 10
283.5184776282623
 20
129.2601122444146
 30
0.0
 11
284.5184776282624
 21
129.2601122444146
 31
0.0
  0
LINE
  8
ITEM_50
 10
284.5184776282624
 20
209.2576535322645
 30
0.0
 11
284.5184776282624
 21
129.2601122444146
 31
0.0
  0
LINE
  8
ITEM_50
 10
283.5184776282624
 20
209.2576535322645
 30
0.0
 11
284.5184776282624
 21
209.2576535322645
 31
0.0
  0
LINE
  8
ITEM_50
 10
194.1257105978754
 20
129.2611453434761
 30
0.0
 11
183.7653338113584
 21
129.2613195802663
 31
0.0
  0
ARC
  8
ITEM_50
 10
194.1257358242924
 20
130.7611453432639
 30
0.0
 40
1.5
 50
269.9990364218481
 51
0.0
  0
LINE
  8
ITEM_50
 10
195.6257358242924
 20
132.7588828883381
 30
0.0
 11
195.6257358242924
 21
130.7611453432639
 31
0.0
  0
ARC
  8
ITEM_50
 10
194.625735824295
 20
132.7588828883355
 30
0.0
 40
0.9999999999974136
 50
0.00000000014656
 51
90.00000000014817
  0
LINE
  8
ITEM_50
 10
190.5443558527221
 20
133.758882888333
 30
0.0
 11
194.6257358242924
 21
133.758882888333
 31
0.0
  0
ARC
  8
ITEM_50
 10
190.5443558527221
 20
134.758882888333
 30
0.0
 40
1.000000000000015
 50
144.0201994025401
 51
270.0
  0
ARC
  8
ITEM_50
 10
209.9657358242926
 20
120.6588828883366
 30
0.0
 40
25.00000000000036
 50
126.6419281412314
 51
144.0201994025371
  0
ARC
  8
ITEM_50
 10
197.4326795330227
 20
137.5088828883331
 30
0.0
 40
3.999999999999857
 50
89.99999999999796
 51
126.6419281412303
  0
LINE
  8
ITEM_50
 10
199.6257358242924
 20
141.508882888333
 30
0.0
 11
197.4326795330229
 21
141.5088828883329
 31
0.0
  0
LINE
  8
ITEM_50
 10
201.818792115562
 20
141.508882888333
 30
0.0
 11
199.6257358242924
 21
141.508882888333
 31
0.0
  0
ARC
  8
ITEM_50
 10
201.818792115562
 20
137.5088828883328
 30
0.0
 40
4.000000000000201
 50
53.35807185876778
 51
90.0
  0
ARC
  8
ITEM_50
 10
189.2857358242926
 20
120.6588828883374
 30
0.0
 40
24.9999999999995
 50
35.97980059746176
 51
53.35807185876746
  0
ARC
  8
ITEM_50
 10
208.7071157958627
 20
134.7588828883329
 30
0.0
 40
0.9999999999999432
 50
270.0
 51
35.97980059746181
  0
LINE
  8
ITEM_50
 10
204.6257358242924
 20
133.758882888333
 30
0.0
 11
208.7071157958627
 21
133.758882888333
 31
0.0
  0
ARC
  8
ITEM_50
 10
204.6257358242924
 20
132.758882888333
 30
0.0
 40
1.0
 50
90.0
 51
180.0
  0
LINE
  8
ITEM_50
 10
203.6257358242924
 20
130.7609603495392
 30
0.0
 11
203.6257358242924
 21
132.758882888333
 31
0.0
  0
ARC
  8
ITEM_50
 10
205.1257358242924
 20
130.7609603495392
 30
0.0
 40
1.500000000000012
 50
180.0
 51
269.9990364218481
  0
LINE
  8
ITEM_50
 10
234.1257105978754
 20
129.2604726390223
 30
0.0
 11
205.1257105978754
 21
129.2609603497513
 31
0.0
  0
ARC
  8
ITEM_50
 10
234.1257358242924
 20
130.7604726388102
 30
0.0
 40
1.5
 50
269.9990364218481
 51
0.0
  0
LINE
  8
ITEM_50
 10
235.6257358242924
 20
132.7588828883381
 30
0.0
 11
235.6257358242924
 21
130.7604726388102
 31
0.0
  0
ARC
  8
ITEM_50
 10
234.625735824295
 20
132.7588828883355
 30
0.0
 40
0.9999999999974136
 50
0.00000000014656
 51
90.00000000014817
  0
LINE
  8
ITEM_50
 10
230.5443558527221
 20
133.758882888333
 30
0.0
 11
234.6257358242924
 21
133.758882888333
 31
0.0
  0
ARC
  8
ITEM_50
 10
230.5443558527221
 20
134.758882888333
 30
0.0
 40
1.000000000000015
 50
144.0201994025401
 51
270.0
  0
ARC
  8
ITEM_50
 10
249.9657358242926
 20
120.6588828883366
 30
0.0
 40
25.00000000000036
 50
126.6419281412314
 51
144.0201994025371
  0
ARC
  8
ITEM_50
 10
237.4326795330227
 20
137.5088828883331
 30
0.0
 40
3.999999999999857
 50
89.99999999999796
 51
126.6419281412303
  0
LINE
  8
ITEM_50
 10
239.6257358242924
 20
141.508882888333
 30
0.0
 11
237.4326795330229
 21
141.5088828883329
 31
0.0
  0
LINE
  8
ITEM_50
 10
241.818792115562
 20
141.508882888333
 30
0.0
 11
239.6257358242924
 21
141.508882888333
 31
0.0
  0
ARC
  8
ITEM_50
 10
241.818792115562
 20
137.5088828883328
 30
0.0
 40
4.000000000000201
 50
53.35807185876778
 51
90.0
  0
ARC
  8
ITEM_50
 10
229.2857358242926
 20
120.6588828883374
 30
0.0
 40
24.9999999999995
 50
35.97980059746176
 51
53.35807185876746
  0
ARC
  8
ITEM_50
 10
248.7071157958627
 20
134.7588828883329
 30
0.0
 40
0.9999999999999432
 50
270.0
 51
35.97980059746181
  0
LINE
  8
ITEM_50
 10
244.6257358242924
 20
133.758882888333
 30
0.0
 11
248.7071157958627
 21
133.758882888333
 31
0.0
  0
ARC
  8
ITEM_50
 10
244.6257358242924
 20
132.758882888333
 30
0.0
 40
1.0
 50
90.0
 51
180.0
  0
LINE
  8
ITEM_50
 10
243.6257358242924
 20
130.7602876450855
 30
0.0
 11
243.6257358242924
 21
132.758882888333
 31
0.0
  0
ARC
  8
ITEM_50
 10
245.1257358242924
 20
130.7602876450855
 30
0.0
 40
1.500000000000012
 50
180.0
 51
269.9990364218481
  0
LINE
  8
ITEM_50
 10
255.5553060618452
 20
129.2601122444146
 30
0.0
 11
245.1257105978754
 21
129.2602876452976
 31
0.0
  0
ARC
  8
ITEM_50
 10
183.6257358242912
 20
133.2588828883358
 30
0.0
 40
4.000000000002671
 50
180.0000000000402
 51
270.0000000000399
  0
LINE
  8
ITEM_50
 10
179.6257358242906
 20
143.7588828883372
 30
0.0
 11
179.6257358242885
 21
133.258882888333
 31
0.0
  0
ARC
  8
ITEM_50
 10
181.1257358242906
 20
143.7588828883369
 30
0.0
 40
1.5
 50
90.0
 51
179.999999999988
  0
LINE
  8
ITEM_50
 10
183.1257358242884
 20
145.2588828883369
 30
0.0
 11
181.1257358242906
 21
145.2588828883369
 31
0.0
  0
ARC
  8
ITEM_50
 10
183.1257358242884
 20
144.2588828883369
 30
0.0
 40
1.0
 50
0.0
 51
90.0
  0
LINE
  8
ITEM_50
 10
184.1257358242885
 20
140.1775029167666
 30
0.0
 11
184.1257358242884
 21
144.2588828883369
 31
0.0
  0
ARC
  8
ITEM_50
 10
185.1257358242884
 20
140.1775029167667
 30
0.0
 40
0.9999999999999464
 50
180.0000000000016
 51
305.9798005974627
  0
ARC
  8
ITEM_50
 10
171.0257358242929
 20
159.598882888337
 30
0.0
 40
24.99999999999966
 50
305.9798005974615
 51
323.3580718587671
  0
ARC
  8
ITEM_50
 10
187.8757358242883
 20
147.0658265970673
 30
0.0
 40
4.000000000000085
 50
323.358071858768
 51
0.0000000000004071
  0
LINE
  8
ITEM_50
 10
191.8757358242884
 20
149.2588828883369
 30
0.0
 11
191.8757358242884
 21
147.0658265970673
 31
0.0
  0
LINE
  8
ITEM_50
 10
191.8757358242884
 20
151.4519391796066
 30
0.0
 11
191.8757358242884
 21
149.2588828883369
 31
0.0
  0
ARC
  8
ITEM_50
 10
187.8757358242885
 20
151.4519391796066
 30
0.0
 40
3.99999999999982
 50
359.9999999999992
 51
36.6419281412317
  0
ARC
  8
ITEM_50
 10
171.0257358242921
 20
138.9188828883371
 30
0.0
 40
25.00000000000007
 50
36.64192814123114
 51
54.02019940253684
  0
ARC
  8
ITEM_50
 10
185.1257358242884
 20
158.3402628599073
 30
0.0
 40
1.0
 50
54.0201994025401
 51
180.0
  0
LINE
  8
ITEM_50
 10
184.1257358242884
 20
154.2588828883369
 30
0.0
 11
184.1257358242884
 21
158.3402628599073
 31
0.0
  0
ARC
  8
ITEM_50
 10
183.1257358242884
 20
154.2588828883369
 30
0.0
 40
1.0
 50
270.0
 51
0.0
  0
LINE
  8
ITEM_50
 10
181.1257358242929
 20
153.2588828883369
 30
0.0
 11
183.1257358242884
 21
153.2588828883369
 31
0.0
  0
ARC
  8
ITEM_50
 10
181.1257358242929
 20
154.7588828883369
 30
0.0
 40
1.5
 50
179.999999999988
 51
270.0
  0
LINE
  8
ITEM_50
 10
179.6257358242988
 20
183.7588828883421
 30
0.0
 11
179.6257358242929
 21
154.7588828883372
 31
0.0
  0
ARC
  8
ITEM_50
 10
181.1257358242988
 20
183.7588828883418
 30
0.0
 40
1.5
 50
89.99999999998588
 51
179.999999999988
  0
LINE
  8
ITEM_50
 10
183.1257358242978
 20
185.2588828883413
 30
0.0
 11
181.1257358242991
 21
185.2588828883418
 31
0.0
  0
ARC
  8
ITEM_50
 10
183.1257358242975
 20
184.2588828883413
 30
0.0
 40
1.0
 50
359.999999999982
 51
89.99999999998371
  0
LINE
  8
ITEM_50
 10
184.1257358242965
 20
180.1775029167707
 30
0.0
 11
184.1257358242975
 21
184.2588828883409
 31
0.0
  0
ARC
  8
ITEM_50
 10
185.1257358242965
 20
180.1775029167704
 30
0.0
 40
1.000000000000069
 50
179.9999999999869
 51
305.9798005974475
  0
ARC
  8
ITEM_50
 10
171.0257358243053
 20
199.5988828883444
 30
0.0
 40
25.00000000000021
 50
305.9798005974481
 51
323.3580718587539
  0
ARC
  8
ITEM_50
 10
187.8757358242985
 20
187.0658265970703
 30
0.0
 40
3.999999999999829
 50
323.3580718587546
 51
359.9999999999869
  0
LINE
  8
ITEM_50
 10
191.8757358242995
 20
191.4519391796088
 30
0.0
 11
191.8757358242983
 21
187.0658265970694
 31
0.0
  0
ARC
  8
ITEM_50
 10
187.8757358242996
 20
191.4519391796098
 30
0.0
 40
3.999999999999853
 50
359.9999999999861
 51
36.64192814121869
  0
ARC
  8
ITEM_50
 10
171.0257358243003
 20
178.9188828883445
 30
0.0
 40
24.99999999999984
 50
36.64192814121742
 51
54.02019940252285
  0
ARC
  8
ITEM_50
 10
185.1257358243013
 20
198.340262859911
 30
0.0
 40
1.0
 50
54.02019940252513
 51
179.9999999999869
  0
LINE
  8
ITEM_50
 10
184.1257358243002
 20
194.2588828883411
 30
0.0
 11
184.1257358243013
 21
198.3402628599112
 31
0.0
  0
ARC
  8
ITEM_50
 10
183.1257358243001
 20
194.2588828883413
 30
0.0
 40
1.000000000000085
 50
269.9999999999902
 51
359.9999999999885
  0
LINE
  8
ITEM_50
 10
181.1257358243005
 20
193.2588828883418
 30
0.0
 11
183.1257358242999
 21
193.2588828883412
 31
0.0
  0
ARC
  8
ITEM_50
 10
181.125735824301
 20
194.7588828883418
 30
0.0
 40
1.5
 50
179.999999999988
 51
269.9999999999815
  0
LINE
  8
ITEM_50
 10
179.6257358243032
 20
205.2588828883461
 30
0.0
 11
179.625735824301
 21
194.7588828883421
 31
0.0
  0
ARC
  8
ITEM_50
 10
183.6257358243058
 20
205.2588828883423
 30
0.0
 40
4.00000000000268
 50
87.99999999652536
 51
179.9999999999454
  0
ARC
  8
ITEM_50
 10
258.1255563674399
 20
143.7588828883371
 30
0.0
 40
1.5
 50
0.0009792483740476
 51
90.00000000000045
  0
ARC
  8
ITEM_50
 10
258.1253683652483
 20
154.7588828883371
 30
0.0
 40
1.5
 50
270.0000000000004
 51
0.000979248373844
  0
ARC
  8
ITEM_50
 10
258.1248727231071
 20
183.7588828883371
 30
0.0
 40
1.5
 50
0.0009792483738695
 51
90.0
  0
ARC
  8
ITEM_50
 10
258.1246847209155
 20
194.7588828883371
 30
0.0
 40
1.5
 50
270.0
 51
0.0009792483739585
  0
LINE
  8
ITEM_50
 10
259.6253683650293
 20
154.7589085249996
 30
0.0
 11
259.624872722888
 21
183.7589085249996
 31
0.0
  0
LINE
  8
ITEM_50
 10
259.6246847206964
 20
194.7589085249996
 30
0.0
 11
259.6245064682199
 21
205.1884531258898
 31
0.0
  0
LINE
  8
ITEM_50
 10
259.6257358242963
 20
133.2588828883385
 30
0.0
 11
259.6255563672208
 21
143.7589085249996
 31
0.0
  0
ARC
  8
ITEM_50
 10
245.1257358242924
 20
207.7574781315937
 30
0.0
 40
1.5
 50
90.00096357815134
 51
180.0
  0
ARC
  8
ITEM_50
 10
234.1257358242924
 20
207.7572931378689
 30
0.0
 40
1.5
 50
0.0
 51
90.00096357815134
  0
ARC
  8
ITEM_50
 10
205.1257358242924
 20
207.75680542714
 30
0.0
 40
1.5
 50
90.00096357815134
 51
180.0
  0
ARC
  8
ITEM_50
 10
194.1257358242924
 20
207.7566204334152
 30
0.0
 40
1.5
 50
0.0
 51
90.00096357815142
  0
LINE
  8
ITEM_50
 10
194.1257105978754
 20
209.2566204332031
 30
0.0
 11
183.7653338113584
 21
209.2564461964129
 31
0.0
  0
LINE
  8
ITEM_50
 10
234.1257105978754
 20
209.2572931376568
 30
0.0
 11
205.1257105978754
 21
209.2568054269279
 31
0.0
  0
LINE
  8
ITEM_50
 10
255.5553060618452
 20
209.2576535322645
 30
0.0
 11
245.1257105978754
 21
209.2574781313815
 31
0.0
  0
CIRCLE
  8
ITEM_50
 10
199.6257358242964
 20
189.2588828883331
 30
0.0
 40
3.399999999999999
  0
CIRCLE
  8
ITEM_50
 10
199.6257358242964
 20
149.2588828883331
 30
0.0
 40
3.399999999999999
  0
CIRCLE
  8
ITEM_50
 10
239.6257358242964
 20
149.2588828883331
 30
0.0
 40
3.399999999999999
  0
CIRCLE
  8
ITEM_50
 10
239.6257358242964
 20
189.2588828883331
 30
0.0
 40
3.399999999999999
  0
ARC
  8
ITEM_50
 10
255.6257358242937
 20
133.2588828883357
 30
0.0
 40
4.000000000002671
 50
270.0000000000399
 51
0.0000000000398969
  0
LINE
  8
ITEM_50
 10
258.1255563674399
 20
145.2588828883371
 30
0.0
 11
256.1257358242964
 21
145.258882888337
 31
0.0
  0
ARC
  8
ITEM_50
 10
256.1257358242964
 20
144.258882888337
 30
0.0
 40
1.0
 50
90.0
 51
180.0
  0
LINE
  8
ITEM_50
 10
255.1257358242964
 20
144.258882888337
 30
0.0
 11
255.1257358242964
 21
140.1775029167667
 31
0.0
  0
ARC
  8
ITEM_50
 10
254.1257358242964
 20
140.1775029167666
 30
0.0
 40
1.0
 50
234.0201994025396
 51
0.0000000000008142
  0
ARC
  8
ITEM_50
 10
268.2257358242927
 20
159.5988828883369
 30
0.0
 40
25.00000000000001
 50
216.6419281412313
 51
234.020199402537
  0
ARC
  8
ITEM_50
 10
251.3757358242964
 20
147.0658265970673
 30
0.0
 40
3.999999999999945
 50
179.9999999999987
 51
216.6419281412313
  0
LINE
  8
ITEM_50
 10
247.3757358242965
 20
147.0658265970674
 30
0.0
 11
247.3757358242964
 21
149.258882888337
 31
0.0
  0
LINE
  8
ITEM_50
 10
247.3757358242964
 20
149.258882888337
 30
0.0
 11
247.3757358242964
 21
151.4519391796067
 31
0.0
  0
ARC
  8
ITEM_50
 10
251.3757358242965
 20
151.4519391796067
 30
0.0
 40
4.000000000000113
 50
143.3580718587682
 51
180.0000000000003
  0
ARC
  8
ITEM_50
 10
268.225735824292
 20
138.918882888337
 30
0.0
 40
24.99999999999975
 50
125.9798005974617
 51
143.3580718587674
  0
ARC
  8
ITEM_50
 10
254.1257358242965
 20
158.3402628599074
 30
0.0
 40
0.9999999999999694
 50
0.0
 51
125.9798005974618
  0
LINE
  8
ITEM_50
 10
255.1257358242964
 20
158.3402628599074
 30
0.0
 11
255.1257358242964
 21
154.258882888337
 31
0.0
  0
ARC
  8
ITEM_50
 10
256.1257358242964
 20
154.258882888337
 30
0.0
 40
1.0
 50
180.0
 51
270.0
  0
LINE
  8
ITEM_50
 10
256.1257358242964
 20
153.258882888337
 30
0.0
 11
258.1253683652483
 21
153.2588828883371
 31
0.0
  0
LINE
  8
ITEM_50
 10
258.1248727231071
 20
185.2588828883371
 30
0.0
 11
256.1257358242964
 21
185.2588828883371
 31
0.0
  0
ARC
  8
ITEM_50
 10
256.1257358242964
 20
184.2588828883371
 30
0.0
 40
1.0
 50
90.0
 51
180.0
  0
LINE
  8
ITEM_50
 10
255.1257358242964
 20
184.2588828883371
 30
0.0
 11
255.1257358242964
 21
180.1775029167668
 31
0.0
  0
ARC
  8
ITEM_50
 10
254.1257358242964
 20
180.1775029167668
 30
0.0
 40
1.0
 50
234.0201994025401
 51
0.0
  0
ARC
  8
ITEM_50
 10
268.2257358242927
 20
199.5988828883369
 30
0.0
 40
25.00000000000001
 50
216.6419281412313
 51
234.020199402537
  0
ARC
  8
ITEM_50
 10
251.3757358242964
 20
187.0658265970673
 30
0.0
 40
3.999999999999945
 50
179.9999999999987
 51
216.6419281412313
  0
LINE
  8
ITEM_50
 10
247.3757358242965
 20
187.0658265970675
 30
0.0
 11
247.3757358242964
 21
189.2588828883371
 31
0.0
  0
LINE
  8
ITEM_50
 10
247.3757358242964
 20
189.2588828883371
 30
0.0
 11
247.3757358242964
 21
191.4519391796067
 31
0.0
  0
ARC
  8
ITEM_50
 10
251.3757358242965
 20
191.4519391796067
 30
0.0
 40
4.000000000000113
 50
143.3580718587682
 51
180.0000000000003
  0
ARC
  8
ITEM_50
 10
268.225735824292
 20
178.918882888337
 30
0.0
 40
24.99999999999974
 50
125.9798005974617
 51
143.3580718587674
  0
ARC
  8
ITEM_50
 10
254.1257358242965
 20
198.3402628599074
 30
0.0
 40
0.9999999999999694
 50
0.0
 51
125.9798005974618
  0
LINE
  8
ITEM_50
 10
255.1257358242964
 20
198.3402628599074
 30
0.0
 11
255.1257358242964
 21
194.2588828883371
 31
0.0
  0
ARC
  8
ITEM_50
 10
256.1257358242964
 20
194.2588828883371
 30
0.0
 40
1.0
 50
180.0
 51
270.0
  0
LINE
  8
ITEM_50
 10
256.1257358242964
 20
193.2588828883371
 30
0.0
 11
258.1246847209155
 21
193.2588828883371
 31
0.0
  0
LINE
  8
ITEM_50
 10
203.6257358242924
 20
132.758882888333
 30
0.0
 11
203.6257358242924
 21
130.9423895621453
 31
0.0
  0
LINE
  8
ITEM_50
 10
203.6257358242924
 20
205.7588828883411
 30
0.0
 11
203.6257358242924
 21
207.75680542714
 31
0.0
  0
ARC
  8
ITEM_50
 10
204.6257358242924
 20
205.7588828883411
 30
0.0
 40
1.0
 50
180.0
 51
270.0
  0
LINE
  8
ITEM_50
 10
208.7071157958627
 20
204.7588828883411
 30
0.0
 11
204.6257358242924
 21
204.7588828883411
 31
0.0
  0
ARC
  8
ITEM_50
 10
208.7071157958627
 20
203.7588828883411
 30
0.0
 40
0.9999999999999694
 50
324.0201994025381
 51
90.0
  0
ARC
  8
ITEM_50
 10
189.2857358242925
 20
217.8588828883368
 30
0.0
 40
24.99999999999969
 50
306.6419281412323
 51
324.020199402538
  0
ARC
  8
ITEM_50
 10
201.8187921155621
 20
201.0088828883412
 30
0.0
 40
4.000000000000071
 50
269.9999999999992
 51
306.6419281412315
  0
LINE
  8
ITEM_50
 10
197.4326795330228
 20
197.0088828883411
 30
0.0
 11
201.818792115562
 21
197.0088828883411
 31
0.0
  0
ARC
  8
ITEM_50
 10
197.4326795330228
 20
201.0088828883411
 30
0.0
 40
3.999999999999974
 50
233.3580718587683
 51
270.0000000000007
  0
ARC
  8
ITEM_50
 10
209.9657358242923
 20
217.8588828883373
 30
0.0
 40
25.00000000000002
 50
215.9798005974629
 51
233.3580718587686
  0
ARC
  8
ITEM_50
 10
190.5443558527221
 20
203.7588828883411
 30
0.0
 40
1.000000000000014
 50
90.0
 51
215.9798005974605
  0
LINE
  8
ITEM_50
 10
194.6257358242924
 20
204.7588828883411
 30
0.0
 11
190.5443558527221
 21
204.7588828883411
 31
0.0
  0
ARC
  8
ITEM_50
 10
194.6257358242924
 20
205.7588828883411
 30
0.0
 40
1.0
 50
270.0
 51
0.0
  0
LINE
  8
ITEM_50
 10
195.6257358242924
 20
207.7566204334152
 30
0.0
 11
195.6257358242924
 21
205.7588828883411
 31
0.0
  0
LINE
  8
ITEM_50
 10
237.4326795330229
 20
197.0088828883411
 30
0.0
 11
239.6257358242924
 21
197.0088828883411
 31
0.0
  0
ARC
  8
ITEM_50
 10
237.4326795330228
 20
201.0088828883411
 30
0.0
 40
3.999999999999974
 50
233.3580718587683
 51
270.0000000000007
  0
ARC
  8
ITEM_50
 10
249.9657358242923
 20
217.8588828883373
 30
0.0
 40
25.00000000000002
 50
215.9798005974629
 51
233.3580718587686
  0
ARC
  8
ITEM_50
 10
230.5443558527221
 20
203.7588828883411
 30
0.0
 40
1.000000000000014
 50
90.0
 51
215.9798005974605
  0
LINE
  8
ITEM_50
 10
234.6257358242924
 20
204.7588828883411
 30
0.0
 11
230.5443558527221
 21
204.7588828883411
 31
0.0
  0
ARC
  8
ITEM_50
 10
234.6257358242924
 20
205.7588828883411
 30
0.0
 40
1.0
 50
270.0
 51
0.0
  0
LINE
  8
ITEM_50
 10
235.6257358242924
 20
207.7572931378689
 30
0.0
 11
235.6257358242924
 21
205.7588828883411
 31
0.0
  0
LINE
  8
ITEM_50
 10
243.6257358242924
 20
205.7588828883411
 30
0.0
 11
243.6257358242924
 21
207.7574781315937
 31
0.0
  0
ARC
  8
ITEM_50
 10
244.6257358242924
 20
205.7588828883411
 30
0.0
 40
1.0
 50
180.0
 51
270.0
  0
ARC
  8
ITEM_50
 10
241.8187921155621
 20
201.0088828883412
 30
0.0
 40
4.000000000000071
 50
269.9999999999992
 51
306.6419281412315
  0
LINE
  8
ITEM_50
 10
239.6257358242924
 20
197.0088828883411
 30
0.0
 11
241.818792115562
 21
197.0088828883411
 31
0.0
  0
LINE
  8
ITEM_50
 10
248.7071157958627
 20
204.7588828883411
 30
0.0
 11
244.6257358242924
 21
204.7588828883411
 31
0.0
  0
ARC
  8
ITEM_50
 10
248.7071157958627
 20
203.7588828883411
 30
0.0
 40
0.9999999999999694
 50
324.0201994025381
 51
90.0
  0
ARC
  8
ITEM_50
 10
229.2857358242925
 20
217.8588828883368
 30
0.0
 40
24.99999999999969
 50
306.6419281412323
 51
324.020199402538
  0
ARC
  8
ITEM_50
 10
255.6251156875943
 20
205.258262751639
 30
0.0
 40
4.0
 50
358.9999999999997
 51
91.00000000000022
  0
CIRCLE
  8
ITEM_50
 10
219.624289132645
 20
169.2542014164652
 30
0.0
 40
20.0
  0
ENDSEC
  0
EOF
